0
SECTION
2
HEADER
9
$INSUNITS
70
4
9
$ACADVER
1
AC1014
9
$HANDSEED
5
FFFF
0
ENDSEC
0
SECTION
2
TABLES
0
TABLE
2
VPORT
5
8
100
AcDbSymbolTable
0
ENDTAB
0
TABLE
2
LTYPE
5
5
100
AcDbSymbolTable
0
LTYPE
5
14
100
AcDbSymbolTableRecord
100
AcDbLinetypeTableRecord
2
BYBLOCK
70
0
0
LTYPE
5
15
100
AcDbSymbolTableRecord
100
AcDbLinetypeTableRecord
2
BYLAYER
70
0
0
ENDTAB
0
TABLE
2
LAYER
5
2
100
AcDbSymbolTable
70
2
0
LAYER
5
50
100
AcDbSymbolTableRecord
100
AcDbLayerTableRecord
2
0
70
0
6
CONTINUOUS
0
ENDTAB
0
TABLE
2
STYLE
5
3
100
AcDbSymbolTable
70
1
0
STYLE
5
11
100
AcDbSymbolTableRecord
100
AcDbTextStyleTableRecord
2
STANDARD
70
0
0
ENDTAB
0
TABLE
2
VIEW
5
6
100
AcDbSymbolTable
70
0
0
ENDTAB
0
TABLE
2
UCS
5
7
100
AcDbSymbolTable
70
0
0
ENDTAB
0
TABLE
2
APPID
5
9
100
AcDbSymbolTable
70
2
0
APPID
5
12
100
AcDbSymbolTableRecord
100
AcDbRegAppTableRecord
2
ACAD
70
0
0
ENDTAB
0
TABLE
2
DIMSTYLE
5
A
100
AcDbSymbolTable
70
1
0
ENDTAB
0
TABLE
2
BLOCK_RECORD
5
1
100
AcDbSymbolTable
70
1
0
BLOCK_RECORD
5
1F
100
AcDbSymbolTableRecord
100
AcDbBlockTableRecord
2
*MODEL_SPACE
0
BLOCK_RECORD
5
1B
100
AcDbSymbolTableRecord
100
AcDbBlockTableRecord
2
*PAPER_SPACE
0
ENDTAB
0
ENDSEC
0
SECTION
2
BLOCKS
0
BLOCK
5
20
100
AcDbEntity
100
AcDbBlockBegin
2
*MODEL_SPACE
0
ENDBLK
5
21
100
AcDbEntity
100
AcDbBlockEnd
0
BLOCK
5
1C
100
AcDbEntity
100
AcDbBlockBegin
2
*PAPER_SPACE
0
ENDBLK
5
1D
100
AcDbEntity
100
AcDbBlockEnd
0
ENDSEC
0
SECTION
2
ENTITIES
0
LWPOLYLINE
5
100
100
AcDbEntity
8
0
100
AcDbPolyline
90
3
70
1
43
0.0
10
-33.076765194067896
20
235.77753004188463
10
-33.076765194068102
20
121.46217674233768
10
65.923234805932907
20
178.61985339211094
0
LWPOLYLINE
5
101
100
AcDbEntity
8
0
100
AcDbPolyline
90
3
70
1
43
0.0
10
39.923234805932339
20
109.337821089356
10
39.923234805932339
20
247.90188569486619
10
-80.076765194067718
20
178.61985339211111
0
CIRCLE
5
102
100
AcDbEntity
8
0
100
AcDbCircle
10
-0.076765194067691667
20
178.61985339211111
30
0
40
10
210
0
220
0
230
1
0
LINE
5
103
100
AcDbEntity
8
0
100
AcDbLine
10
-0.076765194067691667
20
178.61985339211111
30
0
11
-65.07676519406759
21
178.61985339211114
31
0
0
LINE
5
104
100
AcDbEntity
8
0
100
AcDbLine
10
-0.076765194067686199
20
188.61985339211111
30
0
11
-65.07676519406759
21
188.61985339211114
31
0
0
LINE
5
105
100
AcDbEntity
8
0
100
AcDbLine
10
-0.076765194067697134
20
168.61985339211111
30
0
11
-65.076765194067605
21
168.61985339211114
31
0
0
LINE
5
106
100
AcDbEntity
8
0
100
AcDbLine
10
-65.076765194067605
20
168.61985339211114
30
0
11
-65.07676519406759
21
188.61985339211114
31
0
0
LWPOLYLINE
5
107
100
AcDbEntity
8
0
100
AcDbPolyline
90
3
70
1
43
0.0
10
-290.56746043965029
20
-52.696462456684905
10
-191.56746043965023
20
4.4612141930878746
10
-290.56746043965018
20
61.618890842861013
0
LINE
5
108
100
AcDbEntity
8
0
100
AcDbLine
10
-257.56746043965029
20
14.461214193086382
30
0
11
-322.56746043965023
21
14.461214193086169
31
0
0
LINE
5
109
100
AcDbEntity
8
0
100
AcDbLine
10
-257.56746043965023
20
4.4612141930863825
30
0
11
-322.56746043965023
21
4.4612141930861693
31
0
0
LWPOLYLINE
5
110
100
AcDbEntity
8
0
100
AcDbPolyline
90
3
70
1
43
0.0
10
-217.56746043964984
20
73.743246495843223
10
-337.56746043965001
20
4.4612141930880878
10
-217.56746043964984
20
-64.820818109667087
0
LINE
5
111
100
AcDbEntity
8
0
100
AcDbLine
10
-322.56746043965023
20
-5.5387858069138307
30
0
11
-322.56746043965023
21
14.461214193086169
31
0
0
LINE
5
112
100
AcDbEntity
8
0
100
AcDbLine
10
-257.56746043965018
20
-5.5387858069136175
30
0
11
-322.56746043965023
21
-5.5387858069138307
31
0
0
CIRCLE
5
113
100
AcDbEntity
8
0
100
AcDbCircle
10
-257.56746043965023
20
4.4612141930863825
30
0
40
10
210
0
220
0
230
1
0
LINE
5
114
100
AcDbEntity
8
0
100
AcDbLine
10
8.5834888437766921
20
183.61985339211105
30
0
11
41.083488843776621
21
127.32820214612261
31
0
0
LINE
5
115
100
AcDbEntity
8
0
100
AcDbLine
10
41.083488843776621
20
127.32820214612261
30
0
11
23.762980768087836
21
117.32820214612262
31
0
0
LINE
5
116
100
AcDbEntity
8
0
100
AcDbLine
10
-8.7370192319120576
20
173.61985339211111
30
0
11
23.762980768087836
21
117.32820214612262
31
0
0
LINE
5
117
100
AcDbEntity
8
0
100
AcDbLine
10
-8.7370192319120576
20
183.61985339211114
30
0
11
23.762980768087942
21
239.91150463809953
31
0
0
LINE
5
118
100
AcDbEntity
8
0
100
AcDbLine
10
23.762980768087942
20
239.91150463809953
30
0
11
41.083488843776728
21
229.91150463809953
31
0
0
LINE
5
119
100
AcDbEntity
8
0
100
AcDbLine
10
8.5834888437767276
20
173.61985339211111
30
0
11
41.083488843776728
21
229.91150463809953
31
0
0
LINE
5
120
100
AcDbEntity
8
0
100
AcDbLine
10
-257.56746043965023
20
4.4612141930863825
30
0
11
-192.56746043965023
21
4.4612141930863825
31
0
0
LINE
5
121
100
AcDbEntity
8
0
100
AcDbLine
10
-248.32866511453739
20
8.2880485167373052
30
0
11
-223.45424201080633
21
-51.764121096496254
31
0
0
LINE
5
122
100
AcDbEntity
8
0
100
AcDbLine
10
-223.45424201080633
20
-51.764121096496254
30
0
11
-241.93183266103205
21
-59.417789743798082
31
0
0
LINE
5
123
100
AcDbEntity
8
0
100
AcDbLine
10
-266.80625576476308
20
0.63437986943544189
30
0
11
-241.93183266103205
21
-59.417789743798082
31
0
0
LINE
5
124
100
AcDbEntity
8
0
100
AcDbLine
10
-266.80625576476314
20
8.2880485167372342
30
0
11
-241.93183266103247
21
68.340218129970964
31
0
0
LINE
5
125
100
AcDbEntity
8
0
100
AcDbLine
10
-241.93183266103247
20
68.340218129970964
30
0
11
-223.45424201080675
21
60.686549482669143
31
0
0
LINE
5
126
100
AcDbEntity
8
0
100
AcDbLine
10
-248.32866511453739
20
0.63437986943547742
30
0
11
-223.45424201080675
21
60.686549482669143
31
0
0
CIRCLE
5
127
100
AcDbEntity
8
0
100
AcDbCircle
10
-298.29251698025297
20
9.4612141930862794
30
0
40
1.750000000000012
210
0
220
0
230
1
0
CIRCLE
5
128
100
AcDbEntity
8
0
100
AcDbCircle
10
-304.95918364691966
20
9.4612141930862794
30
0
40
1.750000000000012
210
0
220
0
230
1
0
CIRCLE
5
129
100
AcDbEntity
8
0
100
AcDbCircle
10
-311.62585031358628
20
9.4612141930862794
30
0
40
1.750000000000012
210
0
220
0
230
1
0
CIRCLE
5
130
100
AcDbEntity
8
0
100
AcDbCircle
10
-318.29251698025297
20
9.4612141930862794
30
0
40
1.750000000000012
210
0
220
0
230
1
0
CIRCLE
5
131
100
AcDbEntity
8
0
100
AcDbCircle
10
-298.29251698025297
20
-0.53878580691370215
30
0
40
1.750000000000012
210
0
220
0
230
1
0
CIRCLE
5
132
100
AcDbEntity
8
0
100
AcDbCircle
10
-304.95918364691966
20
-0.53878580691370226
30
0
40
1.750000000000012
210
0
220
0
230
1
0
CIRCLE
5
133
100
AcDbEntity
8
0
100
AcDbCircle
10
-311.62585031358628
20
-0.53878580691370237
30
0
40
1.750000000000012
210
0
220
0
230
1
0
CIRCLE
5
134
100
AcDbEntity
8
0
100
AcDbCircle
10
-318.29251698025297
20
-0.53878580691370259
30
0
40
1.750000000000012
210
0
220
0
230
1
0
LINE
5
135
100
AcDbEntity
8
0
100
AcDbLine
10
-298.29251698025263
20
4.4612141930862759
30
0
11
-298.29251698025269
21
14.461214193086249
31
0
0
CIRCLE
5
136
100
AcDbEntity
8
0
100
AcDbCircle
10
-246.60205368198632
20
-35.077249166966809
30
0
40
1.750000000000012
210
0
220
0
230
1
0
CIRCLE
5
137
100
AcDbEntity
8
0
100
AcDbCircle
10
-244.05083079955239
20
-41.236446050375406
30
0
40
1.750000000000012
210
0
220
0
230
1
0
CIRCLE
5
138
100
AcDbEntity
8
0
100
AcDbCircle
10
-241.49960791711848
20
-47.395642933783932
30
0
40
1.750000000000012
210
0
220
0
230
1
0
CIRCLE
5
139
100
AcDbEntity
8
0
100
AcDbCircle
10
-238.94838503468458
20
-53.55483981719253
30
0
40
1.750000000000012
210
0
220
0
230
1
0
CIRCLE
5
140
100
AcDbEntity
8
0
100
AcDbCircle
10
-237.3632583568737
20
40.172843229488748
30
0
40
1.7500000000000118
210
0
220
0
230
1
0
CIRCLE
5
141
100
AcDbEntity
8
0
100
AcDbCircle
10
-234.81203547443977
20
46.33204011289731
30
0
40
1.7500000000000118
210
0
220
0
230
1
0
CIRCLE
5
142
100
AcDbEntity
8
0
100
AcDbCircle
10
-232.26081259200583
20
52.491236996305837
30
0
40
1.7500000000000118
210
0
220
0
230
1
0
CIRCLE
5
143
100
AcDbEntity
8
0
100
AcDbCircle
10
-229.7095897095719
20
58.650433879714434
30
0
40
1.7500000000000118
210
0
220
0
230
1
0
CIRCLE
5
144
100
AcDbEntity
8
0
100
AcDbCircle
10
-334.56746043965069
20
-0.53878580691370292
30
0
40
1.3999999999999999
210
0
220
0
230
1
0
CIRCLE
5
145
100
AcDbEntity
8
0
100
AcDbCircle
10
-334.56746043965086
20
9.4612141930862901
30
0
40
1.3999999999999999
210
0
220
0
230
1
0
LINE
5
146
100
AcDbEntity
8
0
100
AcDbLine
10
-328.56746043965023
20
-5.5387858069138307
30
0
11
-328.56746043965023
21
14.461214193086169
31
0
0
LWPOLYLINE
5
147
100
AcDbEntity
8
0
100
AcDbPolyline
90
4
70
1
43
0.0
10
-328.56746043965023
20
-5.5387858069138307
10
-340.56746043965029
20
-5.5387858069138307
10
-340.56746043965029
20
14.461214193086169
10
-328.56746043965023
20
14.461214193086169
0
LINE
5
148
100
AcDbEntity
8
0
100
AcDbLine
10
-334.56746043965029
20
-5.5387858069138307
30
0
11
-334.56746043965029
21
14.461214193086169
31
0
0
LINE
5
149
100
AcDbEntity
8
0
100
AcDbLine
10
-328.56746043965023
20
-0.53878580691370304
30
0
11
-340.56746043965029
21
-0.53878580691370193
31
0
0
LINE
5
150
100
AcDbEntity
8
0
100
AcDbLine
10
-328.56746043965023
20
9.4612141930862812
30
0
11
-340.56746043965029
21
9.4612141930862812
31
0
0
LINE
5
151
100
AcDbEntity
8
0
100
AcDbLine
10
-337.56746043965029
20
-5.5387858069138307
30
0
11
-337.56746043965029
21
14.461214193086169
31
0
0
LINE
5
152
100
AcDbEntity
8
0
100
AcDbLine
10
-337.56746043965029
20
-2.5387858069138303
30
0
11
-337.56746043965029
21
11.461214193086169
31
0
0
LINE
5
153
100
AcDbEntity
8
0
100
AcDbLine
10
-331.56746043965023
20
14.461214193086141
30
0
11
-331.56746043965023
21
-5.5387858069138609
31
0
0
LINE
5
154
100
AcDbEntity
8
0
100
AcDbLine
10
-237.3632583568737
20
40.172843229488748
30
0
11
-246.03141565355224
21
45.159129330389817
31
0
0
LINE
5
155
100
AcDbEntity
8
0
100
AcDbLine
10
-246.60205368198632
20
-35.077249166966809
30
0
11
-237.94179964414187
21
-30.077249166966826
31
0
0
CIRCLE
5
156
100
AcDbEntity
8
0
100
AcDbCircle
10
-246.03141565355224
20
45.159129330389817
30
0
40
1.7500000000000118
210
0
220
0
230
1
0
CIRCLE
5
157
100
AcDbEntity
8
0
100
AcDbCircle
10
-243.48019277111828
20
51.318326213798372
30
0
40
1.7500000000000118
210
0
220
0
230
1
0
CIRCLE
5
158
100
AcDbEntity
8
0
100
AcDbCircle
10
-240.92896988868435
20
57.477523097206898
30
0
40
1.7500000000000118
210
0
220
0
230
1
0
CIRCLE
5
159
100
AcDbEntity
8
0
100
AcDbCircle
10
-238.37774700625044
20
63.636719980615496
30
0
40
1.7500000000000118
210
0
220
0
230
1
0
CIRCLE
5
160
100
AcDbEntity
8
0
100
AcDbCircle
10
-237.94179964414187
20
-30.077249166966826
30
0
40
1.750000000000012
210
0
220
0
230
1
0
CIRCLE
5
161
100
AcDbEntity
8
0
100
AcDbCircle
10
-235.39057676170796
20
-36.23644605037542
30
0
40
1.750000000000012
210
0
220
0
230
1
0
CIRCLE
5
162
100
AcDbEntity
8
0
100
AcDbCircle
10
-232.83935387927403
20
-42.395642933783947
30
0
40
1.750000000000012
210
0
220
0
230
1
0
CIRCLE
5
163
100
AcDbEntity
8
0
100
AcDbCircle
10
-230.28813099684012
20
-48.554839817192544
30
0
40
1.750000000000012
210
0
220
0
230
1
0
LWPOLYLINE
5
164
100
AcDbEntity
8
0
100
AcDbPolyline
90
4
70
1
43
0.0
10
-270.1742631169609
20
5.2538724897196136
10
-276.96065776233962
20
5.253872489719587
42
0.99999999999999989
10
-276.96065776233962
20
3.6685558964530474
10
-270.1742631169609
20
3.668555896453074
42
0.99999999999999989
0
LINE
5
165
100
AcDbEntity
8
0
100
AcDbLine
10
-270.1742631169609
20
4.4612141930863434
30
0
11
-276.96065776233962
21
4.4612141930863167
31
0
0
LWPOLYLINE
5
166
100
AcDbEntity
8
0
100
AcDbPolyline
90
4
70
1
43
0.0
10
-249.41368434713519
20
-13.152426685650696
10
-252.0107251434128
20
-6.882615573241111
42
0.99999999999999989
10
-253.4753666964823
20
-7.4892899685377046
10
-250.87832590020466
20
-13.759101080947254
42
0.99999999999999989
0
LWPOLYLINE
5
167
100
AcDbEntity
8
0
100
AcDbPolyline
90
4
70
1
43
0.0
10
-250.87832590020483
20
22.681529467120072
10
-253.47536669648238
20
16.411718354710452
42
0.99999999999999989
10
-252.01072514341291
20
15.805043959413858
10
-249.41368434713536
20
22.074855071823514
42
0.99999999999999989
0
LWPOLYLINE
5
168
100
AcDbEntity
8
0
100
AcDbPolyline
90
4
70
1
43
0.0
10
-504.41368434713513
20
-13.152426685650696
10
-507.01072514341274
20
-6.882615573241111
42
0.9999999925494194
10
-508.47536669648218
20
-7.4892899685377046
10
-505.87832590020463
20
-13.759101080947254
42
1.0000000074505806
0
LWPOLYLINE
5
169
100
AcDbEntity
8
0
100
AcDbPolyline
90
9
70
1
43
0.0
10
-519.24924681884329
20
14.461214193086359
10
-496.93183266103244
20
68.340218129970964
10
-478.45424201080675
20
60.686549482669143
10
-501.74353843672623
20
4.4612141930864277
10
-478.4542420108063
20
-51.764121096496254
10
-496.93183266103205
20
-59.417789743798082
10
-519.24924681884318
20
-5.5387858069136398
10
-577.56746043965018
20
-5.5387858069138307
10
-577.56746043965018
20
14.461214193086169
0
LWPOLYLINE
5
170
100
AcDbEntity
8
0
100
AcDbPolyline
90
4
70
1
43
0.0
10
-505.8783259002048
20
22.681529467120072
10
-508.47536669648235
20
16.411718354710452
42
0.9999999925494194
10
-507.01072514341291
20
15.805043959413858
10
-504.4136843471353
20
22.074855071823514
42
0.99999999999999989
0
CIRCLE
5
171
100
AcDbEntity
8
0
100
AcDbCircle
10
-487.83935387927397
20
-42.395642933783947
30
0
40
1.6000000000000003
210
0
220
0
230
1
0
CIRCLE
5
172
100
AcDbEntity
8
0
100
AcDbCircle
10
-573.29251698025291
20
9.4612141930862794
30
0
40
1.6000000000000003
210
0
220
0
230
1
0
LWPOLYLINE
5
173
100
AcDbEntity
8
0
100
AcDbPolyline
90
4
70
1
43
0.0
10
-531.96065776233957
20
5.253872489719587
42
0.99999999999999989
10
-531.96065776233957
20
3.6685558964530474
10
-525.1742631169609
20
3.668555896453074
42
0.99999999999999989
10
-525.1742631169609
20
5.2538724897196136
0
CIRCLE
5
174
100
AcDbEntity
8
0
100
AcDbCircle
10
-489.81203547443965
20
46.33204011289731
30
0
40
1.6000000000000003
210
0
220
0
230
1
0
CIRCLE
5
175
100
AcDbEntity
8
0
100
AcDbCircle
10
-566.62585031358628
20
-0.53878580691370237
30
0
40
1.6000000000000003
210
0
220
0
230
1
0
CIRCLE
5
176
100
AcDbEntity
8
0
100
AcDbCircle
10
-553.29251698025291
20
-0.53878580691370215
30
0
40
1.6000000000000003
210
0
220
0
230
1
0
CIRCLE
5
177
100
AcDbEntity
8
0
100
AcDbCircle
10
-493.94838503468452
20
-53.55483981719253
30
0
40
1.6000000000000003
210
0
220
0
230
1
0
CIRCLE
5
178
100
AcDbEntity
8
0
100
AcDbCircle
10
-487.26081259200583
20
52.491236996305837
30
0
40
1.6000000000000003
210
0
220
0
230
1
0
CIRCLE
5
179
100
AcDbEntity
8
0
100
AcDbCircle
10
-559.95918364691966
20
9.4612141930862794
30
0
40
1.6000000000000003
210
0
220
0
230
1
0
CIRCLE
5
180
100
AcDbEntity
8
0
100
AcDbCircle
10
-498.48019277111825
20
51.318326213798372
30
0
40
1.6000000000000003
210
0
220
0
230
1
0
CIRCLE
5
181
100
AcDbEntity
8
0
100
AcDbCircle
10
-573.29251698025291
20
-0.53878580691370259
30
0
40
1.6000000000000003
210
0
220
0
230
1
0
CIRCLE
5
182
100
AcDbEntity
8
0
100
AcDbCircle
10
-566.62585031358628
20
9.4612141930862794
30
0
40
1.6000000000000003
210
0
220
0
230
1
0
CIRCLE
5
183
100
AcDbEntity
8
0
100
AcDbCircle
10
-553.29251698025291
20
9.4612141930862794
30
0
40
1.6000000000000003
210
0
220
0
230
1
0
CIRCLE
5
184
100
AcDbEntity
8
0
100
AcDbCircle
10
-484.70958970957184
20
58.650433879714434
30
0
40
1.6000000000000003
210
0
220
0
230
1
0
CIRCLE
5
185
100
AcDbEntity
8
0
100
AcDbCircle
10
-559.95918364691966
20
-0.53878580691370226
30
0
40
1.6000000000000003
210
0
220
0
230
1
0
CIRCLE
5
186
100
AcDbEntity
8
0
100
AcDbCircle
10
-492.36325835687364
20
40.172843229488748
30
0
40
1.6000000000000003
210
0
220
0
230
1
0
CIRCLE
5
187
100
AcDbEntity
8
0
100
AcDbCircle
10
-492.94179964414184
20
-30.077249166966826
30
0
40
1.6000000000000003
210
0
220
0
230
1
0
CIRCLE
5
188
100
AcDbEntity
8
0
100
AcDbCircle
10
-493.37774700625039
20
63.636719980615496
30
0
40
1.6000000000000003
210
0
220
0
230
1
0
CIRCLE
5
189
100
AcDbEntity
8
0
100
AcDbCircle
10
-495.92896988868432
20
57.477523097206898
30
0
40
1.6000000000000003
210
0
220
0
230
1
0
CIRCLE
5
190
100
AcDbEntity
8
0
100
AcDbCircle
10
-490.39057676170791
20
-36.23644605037542
30
0
40
1.6000000000000003
210
0
220
0
230
1
0
CIRCLE
5
191
100
AcDbEntity
8
0
100
AcDbCircle
10
-501.60205368198632
20
-35.077249166966809
30
0
40
1.6000000000000003
210
0
220
0
230
1
0
CIRCLE
5
192
100
AcDbEntity
8
0
100
AcDbCircle
10
-499.05083079955233
20
-41.236446050375406
30
0
40
1.6000000000000003
210
0
220
0
230
1
0
CIRCLE
5
193
100
AcDbEntity
8
0
100
AcDbCircle
10
-485.2881309968401
20
-48.554839817192544
30
0
40
1.6000000000000003
210
0
220
0
230
1
0
CIRCLE
5
194
100
AcDbEntity
8
0
100
AcDbCircle
10
-501.03141565355213
20
45.159129330389817
30
0
40
1.6000000000000003
210
0
220
0
230
1
0
CIRCLE
5
195
100
AcDbEntity
8
0
100
AcDbCircle
10
-496.49960791711851
20
-47.395642933783932
30
0
40
1.6000000000000003
210
0
220
0
230
1
0
ENDSEC
0
SECTION
2
OBJECTS
0
DICTIONARY
5
C
100
AcDbDictionary
3
ACAD_GROUP
350
D
3
ACAD_MLINESTYLE
350
17
0
DICTIONARY
5
D
100
AcDbDictionary
0
DICTIONARY
5
1A
330
C
100
AcDbDictionary
0
DICTIONARY
5
17
100
AcDbDictionary
0
ENDSEC
0
EOF
